  0
SECTION
  2
HEADER
  9
$ACADVER
  1
AC1015
  9
$ACADMAINTVER
 70
     6
  9
$DWGCODEPAGE
  3
ANSI_1254
  9
$INSBASE
 10
0.0
 20
0.0
 30
0.0
  9
$EXTMIN
 10
0.0
 20
0.0
 30
0.0
  9
$EXTMAX
 10
279.4
 20
215.9
 30
0.0
  9
$LIMMIN
 10
0.0
 20
0.0
  9
$LIMMAX
 10
279.4
 20
215.9
  9
$ORTHOMODE
 70
     0
  9
$REGENMODE
 70
     1
  9
$FILLMODE
 70
     1
  9
$QTEXTMODE
 70
     0
  9
$MIRRTEXT
 70
     1
  9
$LTSCALE
 40
1.0
  9
$ATTMODE
 70
     1
  9
$TEXTSIZE
 40
3.5
  9
$TRACEWID
 40
1.0
  9
$TEXTSTYLE
  7
Standard
  9
$CLAYER
  8
0
  9
$CELTYPE
  6
ByLayer
  9
$CECOLOR
 62
   256
  9
$CELTSCALE
 40
1.0
  9
$DISPSILH
 70
     0
  9
$DIMSCALE
 40
1.0
  9
$DIMASZ
 40
3.5
  9
$DIMEXO
 40
1.0
  9
$DIMDLI
 40
3.75
  9
$DIMRND
 40
0.0
  9
$DIMDLE
 40
0.0
  9
$DIMEXE
 40
1.0
  9
$DIMTP
 40
0.0
  9
$DIMTM
 40
0.0
  9
$DIMTXT
 40
3.5
  9
$DIMCEN
 40
2.5
  9
$DIMTSZ
 40
0.0
  9
$DIMTOL
 70
     0
  9
$DIMLIM
 70
     0
  9
$DIMTIH
 70
     1
  9
$DIMTOH
 70
     1
  9
$DIMSE1
 70
     0
  9
$DIMSE2
 70
     0
  9
$DIMTAD
 70
     1
  9
$DIMZIN
 70
     0
  9
$DIMBLK
  1

  9
$DIMASO
 70
     1
  9
$DIMSHO
 70
     1
  9
$DIMPOST
  1

  9
$DIMAPOST
  1

  9
$DIMALT
 70
     0
  9
$DIMALTD
 70
     3
  9
$DIMALTF
 40
0.0393700787
  9
$DIMLFAC
 40
1.0
  9
$DIMTOFL
 70
     1
  9
$DIMTVP
 40
0.0
  9
$DIMTIX
 70
     0
  9
$DIMSOXD
 70
     0
  9
$DIMSAH
 70
     0
  9
$DIMBLK1
  1

  9
$DIMBLK2
  1

  9
$DIMSTYLE
  2
ISO-25
  9
$DIMCLRD
 70
     0
  9
$DIMCLRE
 70
     0
  9
$DIMCLRT
 70
     0
  9
$DIMTFAC
 40
1.0
  9
$DIMGAP
 40
1.524
  9
$DIMJUST
 70
     0
  9
$DIMSD1
 70
     0
  9
$DIMSD2
 70
     0
  9
$DIMTOLJ
 70
     0
  9
$DIMTZIN
 70
     0
  9
$DIMALTZ
 70
     0
  9
$DIMALTTZ
 70
     0
  9
$DIMUPT
 70
     0
  9
$DIMDEC
 70
     2
  9
$DIMTDEC
 70
     2
  9
$DIMALTU
 70
     2
  9
$DIMALTTD
 70
     3
  9
$DIMTXSTY
  7
Standard
  9
$DIMAUNIT
 70
     0
  9
$DIMADEC
 70
     2
  9
$DIMALTRND
 40
0.0
  9
$DIMAZIN
 70
     0
  9
$DIMDSEP
 70
    44
  9
$DIMATFIT
 70
     3
  9
$DIMFRAC
 70
     0
  9
$DIMLDRBLK
  1

  9
$DIMLUNIT
 70
     2
  9
$DIMLWD
 70
    -2
  9
$DIMLWE
 70
    -2
  9
$DIMTMOVE
 70
     0
  9
$LUNITS
 70
     2
  9
$LUPREC
 70
     2
  9
$SKETCHINC
 40
1.0
  9
$FILLETRAD
 40
10.0
  9
$AUNITS
 70
     0
  9
$AUPREC
 70
     2
  9
$MENU
  1
.
  9
$ELEVATION
 40
0.0
  9
$PELEVATION
 40
0.0
  9
$THICKNESS
 40
0.0
  9
$LIMCHECK
 70
     0
  9
$CHAMFERA
 40
0.0
  9
$CHAMFERB
 40
0.0
  9
$CHAMFERC
 40
0.0
  9
$CHAMFERD
 40
0.0
  9
$SKPOLY
 70
     0
  9
$TDCREATE
 40
2458985.633278091
  9
$TDUCREATE
 40
2458985.508278091
  9
$TDUPDATE
 40
2458985.633278345
  9
$TDUUPDATE
 40
2458985.508278345
  9
$TDINDWG
 40
0.0000000116
  9
$TDUSRTIMER
 40
0.0000000116
  9
$USRTIMER
 70
     1
  9
$ANGBASE
 50
0.0
  9
$ANGDIR
 70
     0
  9
$PDMODE
 70
     0
  9
$PDSIZE
 40
-1.0
  9
$PLINEWID
 40
0.0
  9
$SPLFRAME
 70
     0
  9
$SPLINETYPE
 70
     6
  9
$SPLINESEGS
 70
     8
  9
$HANDSEED
  5
CC
  9
$SURFTAB1
 70
     6
  9
$SURFTAB2
 70
     6
  9
$SURFTYPE
 70
     6
  9
$SURFU
 70
     6
  9
$SURFV
 70
     6
  9
$UCSBASE
  2

  9
$UCSNAME
  2

  9
$UCSORG
 10
0.0
 20
0.0
 30
0.0
  9
$UCSXDIR
 10
1.0
 20
0.0
 30
0.0
  9
$UCSYDIR
 10
0.0
 20
1.0
 30
0.0
  9
$UCSORTHOREF
  2

  9
$UCSORTHOVIEW
 70
     0
  9
$UCSORGTOP
 10
0.0
 20
0.0
 30
0.0
  9
$UCSORGBOTTOM
 10
0.0
 20
0.0
 30
0.0
  9
$UCSORGLEFT
 10
0.0
 20
0.0
 30
0.0
  9
$UCSORGRIGHT
 10
0.0
 20
0.0
 30
0.0
  9
$UCSORGFRONT
 10
0.0
 20
0.0
 30
0.0
  9
$UCSORGBACK
 10
0.0
 20
0.0
 30
0.0
  9
$PUCSBASE
  2

  9
$PUCSNAME
  2

  9
$PUCSORG
 10
0.0
 20
0.0
 30
0.0
  9
$PUCSXDIR
 10
1.0
 20
0.0
 30
0.0
  9
$PUCSYDIR
 10
0.0
 20
1.0
 30
0.0
  9
$PUCSORTHOREF
  2

  9
$PUCSORTHOVIEW
 70
     0
  9
$PUCSORGTOP
 10
0.0
 20
0.0
 30
0.0
  9
$PUCSORGBOTTOM
 10
0.0
 20
0.0
 30
0.0
  9
$PUCSORGLEFT
 10
0.0
 20
0.0
 30
0.0
  9
$PUCSORGRIGHT
 10
0.0
 20
0.0
 30
0.0
  9
$PUCSORGFRONT
 10
0.0
 20
0.0
 30
0.0
  9
$PUCSORGBACK
 10
0.0
 20
0.0
 30
0.0
  9
$USERI1
 70
     0
  9
$USERI2
 70
     0
  9
$USERI3
 70
     0
  9
$USERI4
 70
     0
  9
$USERI5
 70
     0
  9
$USERR1
 40
0.0
  9
$USERR2
 40
0.0
  9
$USERR3
 40
0.0
  9
$USERR4
 40
0.0
  9
$USERR5
 40
0.0
  9
$WORLDVIEW
 70
     1
  9
$SHADEDGE
 70
     3
  9
$SHADEDIF
 70
    70
  9
$TILEMODE
 70
     1
  9
$MAXACTVP
 70
    64
  9
$PINSBASE
 10
0.0
 20
0.0
 30
0.0
  9
$PLIMCHECK
 70
     0
  9
$PEXTMIN
 10
1.0000000000E+20
 20
1.0000000000E+20
 30
1.0000000000E+20
  9
$PEXTMAX
 10
-1.0000000000E+20
 20
-1.0000000000E+20
 30
-1.0000000000E+20
  9
$PLIMMIN
 10
0.0
 20
0.0
  9
$PLIMMAX
 10
420.0
 20
297.0
  9
$UNITMODE
 70
     0
  9
$VISRETAIN
 70
     1
  9
$PLINEGEN
 70
     0
  9
$PSLTSCALE
 70
     1
  9
$TREEDEPTH
 70
  3020
  9
$CMLSTYLE
  2
Standard
  9
$CMLJUST
 70
     0
  9
$CMLSCALE
 40
20.0
  9
$PROXYGRAPHICS
 70
     1
  9
$MEASUREMENT
 70
     1
  9
$CELWEIGHT
370
    -1
  9
$ENDCAPS
280
     0
  9
$JOINSTYLE
280
     0
  9
$LWDISPLAY
290
     1
  9
$INSUNITS
 70
     4
  9
$HYPERLINKBASE
  1

  9
$STYLESHEET
  1

  9
$XEDIT
290
     1
  9
$CEPSNTYPE
380
     0
  9
$PSTYLEMODE
290
     1
  9
$FINGERPRINTGUID
  2
{5fb5e168-ed49-424e-ab32-a0a2180eba17}
  9
$VERSIONGUID
  2
{FAEB1C32-E019-11D5-929B-00C0DF256EC4}
  9
$EXTNAMES
290
     1
  9
$PSVPSCALE
 40
0.0
  9
$OLESTARTUP
290
     0
  0
ENDSEC
  0
SECTION
  2
CLASSES
  0
CLASS
  1
ACDBDICTIONARYWDFLT
  2
AcDbDictionaryWithDefault
  3
ObjectDBX Classes
 90
        0
280
     0
281
     0
  0
CLASS
  1
VISUALSTYLE
  2
AcDbVisualStyle
  3
ObjectDBX Classes
 90
     4095
280
     0
281
     0
  0
CLASS
  1
MATERIAL
  2
AcDbMaterial
  3
ObjectDBX Classes
 90
     1153
280
     0
281
     0
  0
CLASS
  1
SCALE
  2
AcDbScale
  3
ObjectDBX Classes
 90
     1153
280
     0
281
     0
  0
CLASS
  1
TABLESTYLE
  2
AcDbTableStyle
  3
ObjectDBX Classes
 90
     4095
280
     0
281
     0
  0
CLASS
  1
MLEADERSTYLE
  2
AcDbMLeaderStyle
  3
ACDB_MLEADERSTYLE_CLASS
 90
     4095
280
     0
281
     0
  0
CLASS
  1
SUN
  2
AcDbSun
  3
SCENEOE
 90
     1153
280
     0
281
     0
  0
CLASS
  1
ACDBPLACEHOLDER
  2
AcDbPlaceHolder
  3
ObjectDBX Classes
 90
        0
280
     0
281
     0
  0
CLASS
  1
LAYOUT
  2
AcDbLayout
  3
ObjectDBX Classes
 90
        0
280
     0
281
     0
  0
ENDSEC
  0
SECTION
  2
TABLES
  0
TABLE
  2
VPORT
  5
8
330
0
100
AcDbSymbolTable
 70
     1
  0
VPORT
  5
29
330
8
100
AcDbSymbolTableRecord
100
AcDbViewportTableRecord
  2
*Active
 70
     0
 10
0.0
 20
0.0
 11
1.0
 21
1.0
 12
139.7
 22
107.95
 13
0.0
 23
0.0
 14
10.0
 24
10.0
 15
10.0
 25
10.0
 16
0.0
 26
0.0
 36
1.0
 17
0.0
 27
0.0
 37
0.0
 40
215.9
 41
1.2941176471
 42
50.0
 43
0.0
 44
0.0
 50
0.0
 51
0.0
 71
     0
 72
  2000
 73
     1
 74
     3
 75
     0
 76
     0
 77
     0
 78
     0
281
     0
 65
     1
110
0.0
120
0.0
130
0.0
111
1.0
121
0.0
131
0.0
112
0.0
122
1.0
132
0.0
 79
     0
146
0.0
  0
ENDTAB
  0
TABLE
  2
LTYPE
  5
5
330
0
100
AcDbSymbolTable
 70
     6
  0
LTYPE
  5
14
330
5
100
AcDbSymbolTableRecord
100
AcDbLinetypeTableRecord
  2
ByBlock
 70
     0
  3

 72
    65
 73
     0
 40
0.0
  0
LTYPE
  5
15
330
5
100
AcDbSymbolTableRecord
100
AcDbLinetypeTableRecord
  2
ByLayer
 70
     0
  3

 72
    65
 73
     0
 40
0.0
  0
LTYPE
  5
16
330
5
100
AcDbSymbolTableRecord
100
AcDbLinetypeTableRecord
  2
Continuous
 70
     0
  3
Solid line
 72
    65
 73
     0
 40
0.0
  0
LTYPE
  5
6E
330
5
100
AcDbSymbolTableRecord
100
AcDbLinetypeTableRecord
  2
HIDDEN
 70
     0
  3
Hidden __ __ __ __ __ __ __ __ __ __ __ __ __ __
 72
    65
 73
     2
 40
1.905
 49
1.27
 74
     0
 49
-0.635
 74
     0
  0
LTYPE
  5
6F
330
5
100
AcDbSymbolTableRecord
100
AcDbLinetypeTableRecord
  2
PHANTOM
 70
     0
  3
Phantom ______  __  __  ______  __  __  ______
 72
    65
 73
     6
 40
12.7
 49
6.35
 74
     0
 49
-1.27
 74
     0
 49
1.27
 74
     0
 49
-1.27
 74
     0
 49
1.27
 74
     0
 49
-1.27
 74
     0
  0
LTYPE
  5
70
330
5
100
AcDbSymbolTableRecord
100
AcDbLinetypeTableRecord
  2
CENTER
 70
     0
  3
Center ____ _ ____ _ ____ _ ____ _ ____ _ ____
 72
    65
 73
     4
 40
10.16
 49
6.35
 74
     0
 49
-1.27
 74
     0
 49
1.27
 74
     0
 49
-1.27
 74
     0
  0
LTYPE
  5
71
330
5
100
AcDbSymbolTableRecord
100
AcDbLinetypeTableRecord
  2
CENTERX2
 70
     0
  3
Center (2x) ________  __  ________  __  _____
 72
    65
 73
     4
 40
20.32
 49
12.7
 74
     0
 49
-2.54
 74
     0
 49
2.54
 74
     0
 49
-2.54
 74
     0
  0
LTYPE
  5
72
330
5
100
AcDbSymbolTableRecord
100
AcDbLinetypeTableRecord
  2
DOT2
 70
     0
  3
Dot (.5x) ........................................
 72
    65
 73
     2
 40
0.635
 49
0.0
 74
     0
 49
-0.635
 74
     0
  0
ENDTAB
  0
TABLE
  2
LAYER
  5
2
330
0
100
AcDbSymbolTable
 70
    17
  0
LAYER
  5
10
330
2
100
AcDbSymbolTableRecord
100
AcDbLayerTableRecord
  2
0
 70
     0
 62
     7
  6
Continuous
370
    -3
390
F
  0
LAYER
  5
73
330
2
100
AcDbSymbolTableRecord
100
AcDbLayerTableRecord
  2
FORMAT
 70
     0
 62
     7
  6
Continuous
370
    -3
390
F
  0
LAYER
  5
74
330
2
100
AcDbSymbolTableRecord
100
AcDbLayerTableRecord
  2
YARDIMCI_GEOMETRI
 70
     0
 62
    -6
  6
Continuous
290
     0
370
    -3
390
F
  0
LAYER
  5
75
330
2
100
AcDbSymbolTableRecord
100
AcDbLayerTableRecord
  2
SAYFA_CERCEVESI
 70
     0
 62
     7
  6
Continuous
370
    25
390
F
  0
LAYER
  5
76
330
2
100
AcDbSymbolTableRecord
100
AcDbLayerTableRecord
  2
ANTET
 70
     0
 62
     7
  6
Continuous
370
    -3
390
F
  0
LAYER
  5
77
330
2
100
AcDbSymbolTableRecord
100
AcDbLayerTableRecord
  2
OLCU
 70
     0
 62
   150
  6
Continuous
370
    -3
390
F
  0
LAYER
  5
78
330
2
100
AcDbSymbolTableRecord
100
AcDbLayerTableRecord
  2
METIN
 70
     0
 62
    96
  6
Continuous
370
    -3
390
F
  0
LAYER
  5
79
330
2
100
AcDbSymbolTableRecord
100
AcDbLayerTableRecord
  2
BALON
 70
     0
 62
     5
  6
Continuous
370
    -3
390
F
  0
LAYER
  5
7A
330
2
100
AcDbSymbolTableRecord
100
AcDbLayerTableRecord
  2
VURGU
 70
     0
 62
     7
  6
Continuous
370
    -3
390
F
  0
LAYER
  5
7B
330
2
100
AcDbSymbolTableRecord
100
AcDbLayerTableRecord
  2
SILIK
 70
     0
 62
     7
  6
Continuous
370
    -3
390
F
  0
LAYER
  5
7C
330
2
100
AcDbSymbolTableRecord
100
AcDbLayerTableRecord
  2
MODEL
 70
     0
 62
     7
  6
Continuous
370
    -3
390
F
  0
LAYER
  5
7D
330
2
100
AcDbSymbolTableRecord
100
AcDbLayerTableRecord
  2
DETAYLANDıRMA
 70
     0
 62
   190
  6
Continuous
370
    -3
390
F
  0
LAYER
  5
7E
330
2
100
AcDbSymbolTableRecord
100
AcDbLayerTableRecord
  2
TOLERANS
 70
     0
 62
   230
  6
Continuous
370
    -3
390
F
  0
LAYER
  5
7F
330
2
100
AcDbSymbolTableRecord
100
AcDbLayerTableRecord
  2
MERKEZ_CIZGILERI
 70
     0
 62
    30
  6
Continuous
370
    -3
390
F
  0
LAYER
  5
80
330
2
100
AcDbSymbolTableRecord
100
AcDbLayerTableRecord
  2
KESIT-DETAY_CIZGILERI
 70
     0
 62
     7
  6
Continuous
370
    -3
390
F
  0
LAYER
  5
81
330
2
100
AcDbSymbolTableRecord
100
AcDbLayerTableRecord
  2
\U+041E\U+0421\U+0415\U+0412\U+042B\U+0415
 70
     0
 62
     7
  6
Continuous
370
    -3
390
F
  0
LAYER
  5
82
330
2
100
AcDbSymbolTableRecord
100
AcDbLayerTableRecord
  2
\U+0412\U+041E\U+0414\U+042F\U+041D\U+042B\U+0415_\U+0417\U+041D\U+0410\U+041A\U+0418
 70
     0
 62
    11
  6
Continuous
370
    -3
390
F
  0
ENDTAB
  0
TABLE
  2
STYLE
  5
3
330
0
100
AcDbSymbolTable
 70
     1
  0
STYLE
  5
11
330
3
100
AcDbSymbolTableRecord
100
AcDbTextStyleTableRecord
  2
Standard
 70
     0
 40
0.0
 41
1.0
 50
0.0
 71
     0
 42
3.5
  3
txt
  4

  0
ENDTAB
  0
TABLE
  2
VIEW
  5
6
330
0
100
AcDbSymbolTable
 70
     0
  0
ENDTAB
  0
TABLE
  2
UCS
  5
7
330
0
100
AcDbSymbolTable
 70
     0
  0
ENDTAB
  0
TABLE
  2
APPID
  5
9
330
0
100
AcDbSymbolTable
 70
     1
  0
APPID
  5
12
330
9
100
AcDbSymbolTableRecord
100
AcDbRegAppTableRecord
  2
ACAD
 70
     0
  0
ENDTAB
  0
TABLE
  2
DIMSTYLE
  5
A
330
0
100
AcDbSymbolTable
 70
     1
100
AcDbDimStyleTable
  0
DIMSTYLE
105
27
330
A
100
AcDbSymbolTableRecord
100
AcDbDimStyleTableRecord
  2
ISO-25
 70
     0
 41
2.5
 42
0.625
 43
3.75
 44
1.25
 73
     0
 74
     0
 77
     1
 78
     8
140
2.5
141
2.5
143
0.0393700787
147
0.625
171
     3
172
     1
178
     0
271
     2
272
     2
274
     3
278
    44
283
     0
284
     8
340
11
  0
ENDTAB
  0
TABLE
  2
BLOCK_RECORD
  5
1
330
0
100
AcDbSymbolTable
 70
     2
  0
BLOCK_RECORD
  5
1F
330
1
100
AcDbSymbolTableRecord
100
AcDbBlockTableRecord
  2
*Model_Space
340
22
  0
BLOCK_RECORD
  5
1B
330
1
100
AcDbSymbolTableRecord
100
AcDbBlockTableRecord
  2
*Paper_Space
340
1E
  0
BLOCK_RECORD
  5
23
330
1
100
AcDbSymbolTableRecord
100
AcDbBlockTableRecord
  2
*Paper_Space0
340
26
  0
BLOCK_RECORD
  5
87
330
1
100
AcDbSymbolTableRecord
100
AcDbBlockTableRecord
  2
SW_CENTERMARKSYMBOL_0
340
0
102
{BLKREFS
331
92
102
}
  0
ENDTAB
  0
ENDSEC
  0
SECTION
  2
BLOCKS
  0
BLOCK
  5
20
330
1F
100
AcDbEntity
  8
0
100
AcDbBlockBegin
  2
*Model_Space
 70
     0
 10
0.0
 20
0.0
 30
0.0
  3
*Model_Space
  1

  0
ENDBLK
  5
21
330
1F
100
AcDbEntity
  8
0
100
AcDbBlockEnd
  0
BLOCK
  5
1C
330
1B
100
AcDbEntity
 67
     1
  8
0
100
AcDbBlockBegin
  2
*Paper_Space
 70
     0
 10
0.0
 20
0.0
 30
0.0
  3
*Paper_Space
  1

  0
ENDBLK
  5
1D
330
1B
100
AcDbEntity
 67
     1
  8
0
100
AcDbBlockEnd
  0
BLOCK
  5
24
330
23
100
AcDbEntity
  8
0
100
AcDbBlockBegin
  2
*Paper_Space0
 70
     0
 10
0.0
 20
0.0
 30
0.0
  3
*Paper_Space0
  1

  0
ENDBLK
  5
25
330
23
100
AcDbEntity
  8
0
100
AcDbBlockEnd
  0
BLOCK
  5
88
330
87
100
AcDbEntity
  8
0
100
AcDbBlockBegin
  2
SW_CENTERMARKSYMBOL_0
 70
     0
 10
0.0
 20
0.0
 30
0.0
  3
SW_CENTERMARKSYMBOL_0
  1

  0
LINE
  5
8A
330
87
100
AcDbEntity
  8
FORMAT
 62
     0
100
AcDbLine
 10
0.0
 20
0.0
 30
0.0
 11
0.0
 21
2.5
 31
0.0
  0
LINE
  5
8B
330
87
100
AcDbEntity
  8
FORMAT
 62
     0
100
AcDbLine
 10
0.0
 20
0.0
 30
0.0
 11
-2.5
 21
0.0
 31
0.0
  0
LINE
  5
8C
330
87
100
AcDbEntity
  8
FORMAT
 62
     0
100
AcDbLine
 10
0.0
 20
0.0
 30
0.0
 11
0.0
 21
-2.5
 31
0.0
  0
LINE
  5
8D
330
87
100
AcDbEntity
  8
FORMAT
 62
     0
100
AcDbLine
 10
0.0
 20
0.0
 30
0.0
 11
2.5
 21
0.0
 31
0.0
  0
LINE
  5
8E
330
87
100
AcDbEntity
  8
FORMAT
 62
     0
100
AcDbLine
 10
0.0
 20
5.0
 30
0.0
 11
0.0
 21
220.0
 31
0.0
  0
LINE
  5
8F
330
87
100
AcDbEntity
  8
FORMAT
 62
     0
100
AcDbLine
 10
-5.0
 20
0.0
 30
0.0
 11
-220.0
 21
0.0
 31
0.0
  0
LINE
  5
90
330
87
100
AcDbEntity
  8
FORMAT
 62
     0
100
AcDbLine
 10
0.0
 20
-5.0
 30
0.0
 11
0.0
 21
-220.0
 31
0.0
  0
LINE
  5
91
330
87
100
AcDbEntity
  8
FORMAT
 62
     0
100
AcDbLine
 10
5.0
 20
0.0
 30
0.0
 11
220.0
 21
0.0
 31
0.0
  0
ENDBLK
  5
89
330
87
100
AcDbEntity
  8
0
100
AcDbBlockEnd
  0
ENDSEC
  0
SECTION
  2
ENTITIES
  0
CIRCLE
  5
83
330
1F
100
AcDbEntity
  8
0
  6
Continuous
 62
     7
370
    25
100
AcDbCircle
 10
137.6616518288
 20
108.5078568491
 30
0.0
 40
177.5
  0
CIRCLE
  5
84
330
1F
100
AcDbEntity
  8
0
  6
Continuous
 62
     7
370
    25
100
AcDbCircle
 10
137.6616518288
 20
108.5078568491
 30
0.0
 40
145.3
  0
CIRCLE
  5
85
330
1F
100
AcDbEntity
  8
0
  6
Continuous
 62
     7
370
    25
100
AcDbCircle
 10
137.6616518288
 20
108.5078568491
 30
0.0
 40
188.0
  0
CIRCLE
  5
86
330
1F
100
AcDbEntity
  8
0
  6
Continuous
 62
     7
370
    25
100
AcDbCircle
 10
137.6616518288
 20
108.5078568491
 30
0.0
 40
217.5
  0
INSERT
  5
92
330
1F
100
AcDbEntity
  8
FORMAT
 62
     7
100
AcDbBlockReference
  2
SW_CENTERMARKSYMBOL_0
 10
137.6616518288
 20
108.5078568491
 30
0.0
  0
LINE
  5
93
330
1F
100
AcDbEntity
  8
0
  6
Continuous
 62
     7
370
    25
100
AcDbLine
 10
355.1616518288
 20
417.6097427436
 30
0.0
 11
355.1616518288
 21
462.6097427436
 31
0.0
  0
LINE
  5
94
330
1F
100
AcDbEntity
  8
0
  6
Continuous
 62
     7
370
    25
100
AcDbLine
 10
-79.8383481712
 20
462.6097427436
 30
0.0
 11
-79.8383481712
 21
417.6097427436
 31
0.0
  0
LINE
  5
95
330
1F
100
AcDbEntity
  8
0
  6
Continuous
 62
     7
370
    25
100
AcDbLine
 10
325.6616518288
 20
462.6097427436
 30
0.0
 11
315.1616518288
 21
485.6097427436
 31
0.0
  0
LINE
  5
96
330
1F
100
AcDbEntity
  8
0
  6
Continuous
 62
     7
370
    25
100
AcDbLine
 10
-39.8383481712
 20
485.6097427436
 30
0.0
 11
-50.3383481712
 21
462.6097427436
 31
0.0
  0
LINE
  5
97
330
1F
100
AcDbEntity
  8
0
  6
Continuous
 62
     7
370
    25
100
AcDbLine
 10
315.1616518288
 20
485.6097427436
 30
0.0
 11
315.1616518288
 21
657.6097427436
 31
0.0
  0
LINE
  5
98
330
1F
100
AcDbEntity
  8
0
  6
Continuous
 62
     7
370
    25
100
AcDbLine
 10
-39.8383481712
 20
657.6097427436
 30
0.0
 11
-39.8383481712
 21
485.6097427436
 31
0.0
  0
LINE
  5
99
330
1F
100
AcDbEntity
  8
0
  6
Continuous
 62
     7
370
    25
100
AcDbLine
 10
355.1616518288
 20
417.6097427436
 30
0.0
 11
-79.8383481712
 21
417.6097427436
 31
0.0
  0
LINE
  5
9A
330
1F
100
AcDbEntity
  8
0
  6
Continuous
 62
     7
370
    25
100
AcDbLine
 10
355.1616518288
 20
462.6097427436
 30
0.0
 11
-79.8383481712
 21
462.6097427436
 31
0.0
  0
LINE
  5
9B
330
1F
100
AcDbEntity
  8
0
  6
Continuous
 62
     7
370
    25
100
AcDbLine
 10
315.1616518288
 20
485.6097427436
 30
0.0
 11
-39.8383481712
 21
485.6097427436
 31
0.0
  0
LINE
  5
9C
330
1F
100
AcDbEntity
  8
0
  6
Continuous
 62
     7
370
    25
100
AcDbLine
 10
315.1616518288
 20
657.6097427436
 30
0.0
 11
-39.8383481712
 21
657.6097427436
 31
0.0
  0
LINE
  5
9D
330
1F
100
AcDbEntity
  8
0
  6
Continuous
 62
     7
370
    25
100
AcDbLine
 10
-156.9524480153
 20
326.0078568491
 30
0.0
 11
-201.9524480153
 21
326.0078568491
 31
0.0
  0
LINE
  5
9E
330
1F
100
AcDbEntity
  8
0
  6
Continuous
 62
     7
370
    25
100
AcDbLine
 10
-201.9524480153
 20
-108.9921431509
 30
0.0
 11
-156.9524480153
 21
-108.9921431509
 31
0.0
  0
LINE
  5
9F
330
1F
100
AcDbEntity
  8
0
  6
Continuous
 62
     7
370
    25
100
AcDbLine
 10
-201.9524480153
 20
296.5078568491
 30
0.0
 11
-224.9524480153
 21
286.0078568491
 31
0.0
  0
LINE
  5
A0
330
1F
100
AcDbEntity
  8
0
  6
Continuous
 62
     7
370
    25
100
AcDbLine
 10
-224.9524480153
 20
-68.9921431509
 30
0.0
 11
-201.9524480153
 21
-79.4921431509
 31
0.0
  0
LINE
  5
A1
330
1F
100
AcDbEntity
  8
0
  6
Continuous
 62
     7
370
    25
100
AcDbLine
 10
-224.9524480153
 20
286.0078568491
 30
0.0
 11
-396.9524480153
 21
286.0078568491
 31
0.0
  0
LINE
  5
A2
330
1F
100
AcDbEntity
  8
0
  6
Continuous
 62
     7
370
    25
100
AcDbLine
 10
-396.9524480153
 20
-68.9921431509
 30
0.0
 11
-224.9524480153
 21
-68.9921431509
 31
0.0
  0
LINE
  5
A3
330
1F
100
AcDbEntity
  8
0
  6
Continuous
 62
     7
370
    25
100
AcDbLine
 10
-156.9524480153
 20
326.0078568491
 30
0.0
 11
-156.9524480153
 21
-108.9921431509
 31
0.0
  0
LINE
  5
A4
330
1F
100
AcDbEntity
  8
0
  6
Continuous
 62
     7
370
    25
100
AcDbLine
 10
-201.9524480153
 20
326.0078568491
 30
0.0
 11
-201.9524480153
 21
-108.9921431509
 31
0.0
  0
LINE
  5
A5
330
1F
100
AcDbEntity
  8
0
  6
Continuous
 62
     7
370
    25
100
AcDbLine
 10
-224.9524480153
 20
286.0078568491
 30
0.0
 11
-224.9524480153
 21
-68.9921431509
 31
0.0
  0
LINE
  5
A6
330
1F
100
AcDbEntity
  8
0
  6
Continuous
 62
     7
370
    25
100
AcDbLine
 10
-396.9524480153
 20
286.0078568491
 30
0.0
 11
-396.9524480153
 21
-68.9921431509
 31
0.0
  0
LINE
  5
A7
330
1F
100
AcDbEntity
  8
0
  6
Continuous
 62
     7
370
    25
100
AcDbLine
 10
440.795316789
 20
-108.9921431509
 30
0.0
 11
485.795316789
 21
-108.9921431509
 31
0.0
  0
LINE
  5
A8
330
1F
100
AcDbEntity
  8
0
  6
Continuous
 62
     7
370
    25
100
AcDbLine
 10
485.795316789
 20
326.0078568491
 30
0.0
 11
440.795316789
 21
326.0078568491
 31
0.0
  0
LINE
  5
A9
330
1F
100
AcDbEntity
  8
0
  6
Continuous
 62
     7
370
    25
100
AcDbLine
 10
485.795316789
 20
-79.4921431509
 30
0.0
 11
508.795316789
 21
-68.9921431509
 31
0.0
  0
LINE
  5
AA
330
1F
100
AcDbEntity
  8
0
  6
Continuous
 62
     7
370
    25
100
AcDbLine
 10
508.795316789
 20
286.0078568491
 30
0.0
 11
485.795316789
 21
296.5078568491
 31
0.0
  0
LINE
  5
AB
330
1F
100
AcDbEntity
  8
0
  6
Continuous
 62
     7
370
    25
100
AcDbLine
 10
508.795316789
 20
-68.9921431509
 30
0.0
 11
680.795316789
 21
-68.9921431509
 31
0.0
  0
LINE
  5
AC
330
1F
100
AcDbEntity
  8
0
  6
Continuous
 62
     7
370
    25
100
AcDbLine
 10
680.795316789
 20
286.0078568491
 30
0.0
 11
508.795316789
 21
286.0078568491
 31
0.0
  0
LINE
  5
AD
330
1F
100
AcDbEntity
  8
0
  6
Continuous
 62
     7
370
    25
100
AcDbLine
 10
440.795316789
 20
108.5078568491
 30
0.0
 11
440.795316789
 21
326.0078568491
 31
0.0
  0
LINE
  5
AE
330
1F
100
AcDbEntity
  8
0
  6
Continuous
 62
     7
370
    25
100
AcDbLine
 10
440.795316789
 20
-108.9921431509
 30
0.0
 11
440.795316789
 21
108.5078568491
 31
0.0
  0
LINE
  5
AF
330
1F
100
AcDbEntity
  8
0
  6
Continuous
 62
     7
370
    25
100
AcDbLine
 10
485.795316789
 20
108.5078568491
 30
0.0
 11
485.795316789
 21
326.0078568491
 31
0.0
  0
LINE
  5
B0
330
1F
100
AcDbEntity
  8
0
  6
Continuous
 62
     7
370
    25
100
AcDbLine
 10
485.795316789
 20
-108.9921431509
 30
0.0
 11
485.795316789
 21
108.5078568491
 31
0.0
  0
LINE
  5
B1
330
1F
100
AcDbEntity
  8
0
  6
Continuous
 62
     7
370
    25
100
AcDbLine
 10
508.795316789
 20
108.5078568491
 30
0.0
 11
508.795316789
 21
286.0078568491
 31
0.0
  0
LINE
  5
B2
330
1F
100
AcDbEntity
  8
0
  6
Continuous
 62
     7
370
    25
100
AcDbLine
 10
508.795316789
 20
-68.9921431509
 30
0.0
 11
508.795316789
 21
108.5078568491
 31
0.0
  0
LINE
  5
B3
330
1F
100
AcDbEntity
  8
0
  6
Continuous
 62
     7
370
    25
100
AcDbLine
 10
680.795316789
 20
108.5078568491
 30
0.0
 11
680.795316789
 21
286.0078568491
 31
0.0
  0
LINE
  5
B4
330
1F
100
AcDbEntity
  8
0
  6
Continuous
 62
     7
370
    25
100
AcDbLine
 10
680.795316789
 20
-68.9921431509
 30
0.0
 11
680.795316789
 21
108.5078568491
 31
0.0
  0
LINE
  5
B5
330
1F
100
AcDbEntity
  8
0
  6
Continuous
 62
     7
370
    25
100
AcDbLine
 10
-79.8383481712
 20
-200.7858028891
 30
0.0
 11
-79.8383481712
 21
-245.7858028891
 31
0.0
  0
LINE
  5
B6
330
1F
100
AcDbEntity
  8
0
  6
Continuous
 62
     7
370
    25
100
AcDbLine
 10
355.1616518288
 20
-245.7858028891
 30
0.0
 11
355.1616518288
 21
-200.7858028891
 31
0.0
  0
LINE
  5
B7
330
1F
100
AcDbEntity
  8
0
  6
Continuous
 62
     7
370
    25
100
AcDbLine
 10
-50.3383481712
 20
-245.7858028891
 30
0.0
 11
-39.8383481712
 21
-268.7858028891
 31
0.0
  0
LINE
  5
B8
330
1F
100
AcDbEntity
  8
0
  6
Continuous
 62
     7
370
    25
100
AcDbLine
 10
315.1616518288
 20
-268.7858028891
 30
0.0
 11
325.6616518288
 21
-245.7858028891
 31
0.0
  0
LINE
  5
B9
330
1F
100
AcDbEntity
  8
0
  6
Continuous
 62
     7
370
    25
100
AcDbLine
 10
-39.8383481712
 20
-268.7858028891
 30
0.0
 11
-39.8383481712
 21
-440.7858028891
 31
0.0
  0
LINE
  5
BA
330
1F
100
AcDbEntity
  8
0
  6
Continuous
 62
     7
370
    25
100
AcDbLine
 10
315.1616518288
 20
-440.7858028891
 30
0.0
 11
315.1616518288
 21
-268.7858028891
 31
0.0
  0
LINE
  5
BB
330
1F
100
AcDbEntity
  8
0
  6
Continuous
 62
     7
370
    25
100
AcDbLine
 10
-79.8383481712
 20
-200.7858028891
 30
0.0
 11
355.1616518288
 21
-200.7858028891
 31
0.0
  0
LINE
  5
BC
330
1F
100
AcDbEntity
  8
0
  6
Continuous
 62
     7
370
    25
100
AcDbLine
 10
-79.8383481712
 20
-245.7858028891
 30
0.0
 11
355.1616518288
 21
-245.7858028891
 31
0.0
  0
LINE
  5
BD
330
1F
100
AcDbEntity
  8
0
  6
Continuous
 62
     7
370
    25
100
AcDbLine
 10
-39.8383481712
 20
-268.7858028891
 30
0.0
 11
315.1616518288
 21
-268.7858028891
 31
0.0
  0
LINE
  5
BE
330
1F
100
AcDbEntity
  8
0
  6
Continuous
 62
     7
370
    25
100
AcDbLine
 10
-39.8383481712
 20
-440.7858028891
 30
0.0
 11
315.1616518288
 21
-440.7858028891
 31
0.0
  0
LINE
  5
BF
330
1F
100
AcDbEntity
  8
0
  6
Continuous
 62
     7
370
    25
100
AcDbLine
 10
535.2129594988
 20
-227.71210606
 30
0.0
 11
454.9413526028
 21
-306.0596552304
 31
0.0
  0
LINE
  5
C0
330
1F
100
AcDbEntity
  8
0
  6
Continuous
 62
     7
370
    25
100
AcDbLine
 10
702.9010989238
 20
-560.1087926122
 30
0.0
 11
783.1727058198
 21
-481.7612434418
 31
0.0
  0
LINE
  5
C1
330
1F
100
AcDbEntity
  8
0
  6
Continuous
 62
     7
370
    25
100
AcDbLine
 10
539.0091196
 20
-168.1122386811
 30
0.0
 11
518.0078270982
 21
-188.6101439873
 31
0.0
  0
LINE
  5
C2
330
1F
100
AcDbEntity
  8
0
  6
Continuous
 62
     7
370
    25
100
AcDbLine
 10
821.8458261112
 20
-499.9097912016
 30
0.0
 11
842.847118613
 21
-479.4118858954
 31
0.0
  0
LWPOLYLINE
  5
C3
330
1F
100
AcDbEntity
  8
0
  6
Continuous
 62
     7
370
    25
100
AcDbPolyline
 90
      142
 70
   128
 43
0.0
 10
421.9370091656
 20
-390.4192776149
 10
422.092847981
 20
-383.6839527311
 10
422.5600550238
 20
-377.0467075131
 10
423.3377026977
 20
-370.5207195969
 10
424.4242470551
 20
-364.1189457273
 10
425.8175308628
 20
-357.8540960339
 10
427.5147878847
 20
-351.7386087957
 10
429.5126483743
 20
-345.7846257467
 10
431.8071457643
 20
-340.003967969
 10
434.3937245426
 20
-334.4081124236
 10
437.2672492965
 20
-329.0081691636
 10
440.4220149086
 20
-323.8148592767
 10
443.8517578837
 20
-318.8384935988
 10
447.5496687847
 20
-314.0889522433
 10
451.5084057517
 20
-309.5756649851
 10
455.720109079
 20
-305.3075925381
 10
460.1764168194
 20
-301.2932087652
 10
464.8684813864
 20
-297.5404838537
 10
469.7869871201
 20
-294.0568684916
 10
474.9221687828
 20
-290.8492790747
 10
480.2638309464
 20
-287.9240839749
 10
485.8013682353
 20
-285.2870908963
 10
491.5237863818
 20
-282.9435353446
 10
497.4197240542
 20
-280.8980702324
 10
503.4774754142
 20
-279.1547566413
 10
509.685013357
 20
-277.7170557591
 10
516.0300133908
 20
-276.5878220078
 10
522.4998781053
 20
-275.7692973765
 10
529.0817621829
 20
-275.2631069701
 10
535.7625979021
 20
-275.0702557828
 10
542.529121082
 20
-275.1911267027
 10
549.3678974171
 20
-275.625479752
 10
556.2653491501
 20
-276.3724525626
 10
563.2077820289
 20
-277.4305620894
 10
570.1814124958
 20
-278.7977075538
 10
577.1723950529
 20
-280.471174615
 10
584.1668497515
 20
-282.447640759
 10
591.1508897492
 20
-284.7231818953
 10
598.1106488812
 20
-287.2932801476
 10
605.0323091898
 20
-290.1528328238
 10
611.9021283592
 20
-293.2961625465
 10
618.7064669993
 20
-296.7170285258
 10
625.4318157257
 20
-300.4086389487
 10
632.0648219809
 20
-304.3636644646
 10
638.5923165451
 20
-308.5742527364
 10
645.0013396819
 20
-313.0320440307
 10
651.2791668692
 20
-317.7281878157
 10
657.4133340622
 20
-322.6533603325
 10
663.3916624397
 20
-327.7977831069
 10
669.2022825842
 20
-333.1512423639
 10
674.8336580472
 20
-338.7031093054
 10
680.274608254
 20
-344.4423612137
 10
685.5143307015
 20
-350.3576033354
 10
690.5424224059
 20
-356.4370915047
 10
695.3489005565
 20
-362.6687554605
 10
699.9242223359
 20
-369.0402228111
 10
704.2593038662
 20
-375.5388435977
 10
708.3455382442
 20
-382.1517154102
 10
712.1748126299
 20
-388.8657090039
 10
715.7395243534
 20
-395.6674943658
 10
719.0325960095
 20
-402.5435671809
 10
722.0474895094
 20
-409.4802756429
 10
724.7782190609
 20
-416.4638475593
 10
727.2193630535
 20
-423.4804176946
 10
729.3660748216
 20
-430.5160552981
 10
731.2140922677
 20
-437.5567917627
 10
732.7597463243
 20
-444.5886483579
 10
733.9999682383
 20
-451.5976639832
 10
734.9322956638
 20
-458.569922887
 10
735.5548775512
 20
-465.4915822946
 10
735.8664778216
 20
-472.3488998919
 10
735.8664778216
 20
-479.1282611096
 10
735.5548775512
 20
-485.8162061534
 10
734.9322956638
 20
-492.3994567277
 10
733.9999682382
 20
-498.8649423976
 10
732.7597463243
 20
-505.19982654
 10
731.2140922677
 20
-511.3915318288
 10
729.3660748216
 20
-517.4277652061
 10
727.2193630535
 20
-523.2965422895
 10
724.7782190609
 20
-528.9862111652
 10
722.0474895094
 20
-534.4854755223
 10
719.0325960095
 20
-539.7834170805
 10
715.7395243534
 20
-544.8695172672
 10
712.1748126299
 20
-549.7336781013
 10
708.3455382442
 20
-554.3662422418
 10
704.2593038662
 20
-558.7580121613
 10
699.9242223359
 20
-562.9002684071
 10
695.3489005565
 20
-566.784786913
 10
690.5424224059
 20
-570.4038553269
 10
685.5143307015
 20
-573.7502883236
 10
680.274608254
 20
-576.8174418701
 10
674.8336580472
 20
-579.5992264169
 10
669.2022825842
 20
-582.0901189884
 10
663.3916624397
 20
-584.2851741479
 10
657.4133340622
 20
-586.1800338164
 10
651.2791668692
 20
-587.7709359257
 10
645.0013396819
 20
-589.0547218868
 10
638.5923165451
 20
-590.0288428615
 10
632.0648219809
 20
-590.6913648227
 10
625.4318157257
 20
-591.0409723945
 10
618.7064669993
 20
-591.0769714634
 10
611.9021283592
 20
-590.7992905565
 10
605.0323091898
 20
-590.2084809837
 10
598.1106488812
 20
-589.3057157425
 10
591.1508897492
 20
-588.0927871899
 10
584.1668497515
 20
-586.5721034832
 10
577.1723950529
 20
-584.7466837992
 10
570.1814124958
 20
-582.6201523396
 10
563.2077820289
 20
-580.1967311358
 10
556.2653491501
 20
-577.4812316663
 10
549.3678974171
 20
-574.479045304
 10
542.529121082
 20
-571.196132612
 10
535.7625979021
 20
-567.6390115094
 10
529.0817621829
 20
-563.8147443312
 10
522.4998781053
 20
-559.7309238056
 10
516.0300133908
 20
-555.3956579804
 10
509.685013357
 20
-550.8175541245
 10
503.4774754142
 20
-546.0057016395
 10
497.4197240542
 20
-540.9696540129
 10
491.5237863818
 20
-535.7194098513
 10
485.8013682353
 20
-530.2653930283
 10
480.2638309464
 20
-524.6184319896
 10
474.9221687828
 20
-518.7897382536
 10
469.7869871201
 20
-512.7908841522
 10
464.8684813864
 20
-506.6337798549
 10
460.1764168194
 20
-500.3306497223
 10
455.720109079
 20
-493.894008036
 10
451.5084057517
 20
-487.3366341521
 10
447.5496687847
 20
-480.6715471295
 10
443.8517578837
 20
-473.9119798816
 10
440.4220149086
 20
-467.0713529034
 10
437.2672492965
 20
-460.1632476266
 10
434.3937245426
 20
-453.2013794549
 10
431.8071457643
 20
-446.1995705329
 10
429.5126483743
 20
-439.1717223043
 10
427.5147878847
 20
-432.1317879111
 10
425.8175308628
 20
-425.0937444914
 10
424.4242470551
 20
-418.071565429
 10
423.3377026977
 20
-411.0791926104
 10
422.5600550238
 20
-404.1305087446
 10
422.092847981
 20
-397.2393098002
 10
421.9370091656
 20
-390.4192776149
  0
LWPOLYLINE
  5
C4
330
1F
100
AcDbEntity
  8
0
  6
Continuous
 62
     7
370
    25
100
AcDbPolyline
 90
      129
 70
   128
 43
0.0
 10
450.4152726836
 20
-398.1590594237
 10
450.570063732
 20
-392.0899256886
 10
451.0340639719
 20
-386.1195508086
 10
451.8061555862
 20
-380.2623179398
 10
452.8844785385
 20
-374.5323376692
 10
454.2664350544
 20
-368.9434140211
 10
455.9486958796
 20
-363.509011202
 10
457.9272083004
 20
-358.2422211646
 10
460.1972059071
 20
-353.1557320671
 10
462.7532200766
 20
-348.2617977074
 10
465.589093147
 20
-343.572208002
 10
468.6979932515
 20
-339.0982605833
 10
472.0724307776
 20
-334.8507335825
 10
475.7042764096
 20
-330.8398596642
 10
479.5847807133
 20
-327.0753013749
 10
483.7045952141
 20
-323.5661278653
 10
488.0537949178
 20
-320.3207930417
 10
492.6219022215
 20
-317.3471152
 10
497.3979121545
 20
-314.6522581907
 10
502.3703188906
 20
-312.2427141601
 10
507.5271434664
 20
-310.1242879111
 10
512.8559626399
 20
-308.3020829179
 10
518.3439388188
 20
-306.7804890321
 10
523.977850988
 20
-305.5631719065
 10
529.7441265594
 20
-304.6530641647
 10
535.6288740703
 20
-304.052358336
 10
541.6179166483
 20
-303.7625015733
 10
547.6968261654
 20
-303.7841921671
 10
553.850957996
 20
-304.1173778627
 10
560.0654862976
 20
-304.7612559866
 10
566.3254397271
 20
-305.71427538
 10
572.6157375085
 20
-306.9741401357
 10
578.9212257633
 20
-308.5378151292
 10
585.2267140182
 20
-310.4015333305
 10
591.5170117995
 20
-312.5608048792
 10
597.776965229
 20
-315.0104279009
 10
603.9914935306
 20
-317.7445010393
 10
610.1456253613
 20
-320.7564376726
 10
616.2245348783
 20
-324.0389817818
 10
622.2135774564
 20
-327.5842254306
 10
628.0983249672
 20
-331.3836278164
 10
633.8646005387
 20
-335.4280358461
 10
639.4985127078
 20
-339.7077061866
 10
644.9864888868
 20
-344.2123287372
 10
650.3153080602
 20
-348.9310514674
 10
655.4721326361
 20
-353.8525065611
 10
660.4445393722
 20
-358.9648378018
 10
665.2205493052
 20
-364.2557291357
 10
669.7886566088
 20
-369.7124343423
 10
674.1378563126
 20
-375.3218077406
 10
678.2576708133
 20
-381.0703358589
 10
682.1381751171
 20
-386.9441699895
 10
685.7700207491
 20
-392.9291595513
 10
689.1444582752
 20
-399.0108861804
 10
692.2533583797
 20
-405.1746984646
 10
695.08923145
 20
-411.4057472402
 10
697.6452456195
 20
-417.6890213649
 10
699.9152432262
 20
-424.009383881
 10
701.893755647
 20
-430.3516084817
 10
703.5760164722
 20
-436.7004161923
 10
704.9579729881
 20
-443.0405121789
 10
706.0362959404
 20
-449.3566225951
 10
706.8083875547
 20
-455.6335313776
 10
707.2723877947
 20
-461.8561169034
 10
707.4271788431
 20
-468.0093884188
 10
707.2723877947
 20
-474.0785221539
 10
706.8083875547
 20
-480.0488970339
 10
706.0362959404
 20
-485.9061299027
 10
704.9579729881
 20
-491.6361101733
 10
703.5760164722
 20
-497.2250338215
 10
701.893755647
 20
-502.6594366405
 10
699.9152432262
 20
-507.926226678
 10
697.6452456195
 20
-513.0127157754
 10
695.08923145
 20
-517.9066501351
 10
692.2533583797
 20
-522.5962398405
 10
689.1444582752
 20
-527.0701872592
 10
685.7700207491
 20
-531.31771426
 10
682.1381751171
 20
-535.3285881783
 10
678.2576708133
 20
-539.0931464677
 10
674.1378563126
 20
-542.6023199773
 10
669.7886566088
 20
-545.8476548008
 10
665.2205493052
 20
-548.8213326425
 10
660.4445393721
 20
-551.5161896518
 10
655.4721326361
 20
-553.9257336824
 10
650.3153080602
 20
-556.0441599314
 10
644.9864888868
 20
-557.8663649246
 10
639.4985127078
 20
-559.3879588104
 10
633.8646005387
 20
-560.605275936
 10
628.0983249672
 20
-561.5153836778
 10
622.2135774564
 20
-562.1160895065
 10
616.2245348783
 20
-562.4059462692
 10
610.1456253613
 20
-562.3842556754
 10
603.9914935306
 20
-562.0510699798
 10
597.776965229
 20
-561.407191856
 10
591.5170117995
 20
-560.4541724625
 10
585.2267140182
 20
-559.1943077068
 10
578.9212257633
 20
-557.6306327133
 10
572.6157375085
 20
-555.766914512
 10
566.3254397271
 20
-553.6076429634
 10
560.0654862976
 20
-551.1580199416
 10
553.850957996
 20
-548.4239468033
 10
547.6968261654
 20
-545.4120101699
 10
541.6179166483
 20
-542.1294660607
 10
535.6288740703
 20
-538.584222412
 10
529.7441265594
 20
-534.7848200261
 10
523.977850988
 20
-530.7404119964
 10
518.3439388188
 20
-526.4607416559
 10
512.8559626399
 20
-521.9561191054
 10
507.5271434664
 20
-517.2373963751
 10
502.3703188906
 20
-512.3159412814
 10
497.3979121545
 20
-507.2036100407
 10
492.6219022215
 20
-501.9127187068
 10
488.0537949178
 20
-496.4560135002
 10
483.7045952141
 20
-490.8466401019
 10
479.5847807133
 20
-485.0981119836
 10
475.7042764096
 20
-479.224277853
 10
472.0724307775
 20
-473.2392882912
 10
468.6979932515
 20
-467.1575616621
 10
465.589093147
 20
-460.9937493779
 10
462.7532200766
 20
-454.7627006023
 10
460.1972059071
 20
-448.4794264776
 10
457.9272083004
 20
-442.1590639615
 10
455.9486958796
 20
-435.8168393608
 10
454.2664350544
 20
-429.4680316502
 10
452.8844785385
 20
-423.1279356636
 10
451.8061555862
 20
-416.8118252474
 10
451.0340639719
 20
-410.5349164649
 10
450.570063732
 20
-404.3123309391
 10
450.4152726836
 20
-398.1590594237
  0
LWPOLYLINE
  5
C5
330
1F
100
AcDbEntity
  8
0
  6
Continuous
 62
     7
370
    25
100
AcDbPolyline
 90
       73
 70
   128
 43
0.0
 10
535.2129594988
 20
-227.71210606
 10
535.9917159749
 20
-226.9600433678
 10
540.4480237153
 20
-222.9456595949
 10
545.1400882824
 20
-219.1929346834
 10
550.0585940161
 20
-215.7093193213
 10
555.1937756787
 20
-212.5017299044
 10
560.5354378424
 20
-209.5765348046
 10
566.0729751313
 20
-206.939541726
 10
571.7953932777
 20
-204.5959861743
 10
577.6913309502
 20
-202.550521062
 10
583.7490823101
 20
-200.8072074709
 10
589.956620253
 20
-199.3695065887
 10
596.3016202868
 20
-198.2402728374
 10
602.7714850013
 20
-197.4217482062
 10
609.3533690789
 20
-196.9155577998
 10
616.0342047981
 20
-196.7227066125
 10
622.800727978
 20
-196.8435775324
 10
629.6395043131
 20
-197.2779305816
 10
636.536956046
 20
-198.0249033923
 10
643.4793889249
 20
-199.0830129191
 10
650.4530193917
 20
-200.4501583835
 10
657.4440019489
 20
-202.1236254446
 10
664.4384566475
 20
-204.1000915887
 10
671.4224966452
 20
-206.375632725
 10
678.3822557771
 20
-208.9457309773
 10
685.3039160857
 20
-211.8052836534
 10
692.1737352551
 20
-214.9486133762
 10
698.9780738953
 20
-218.3694793555
 10
705.7034226217
 20
-222.0610897784
 10
712.3364288769
 20
-226.0161152943
 10
718.863923441
 20
-230.226703566
 10
725.2729465779
 20
-234.6844948604
 10
731.5507737652
 20
-239.3806386453
 10
737.6849409582
 20
-244.3058111621
 10
743.6632693357
 20
-249.4502339366
 10
749.4738894802
 20
-254.8036931935
 10
755.1052649432
 20
-260.3555601351
 10
760.5462151499
 20
-266.0948120434
 10
765.7859375975
 20
-272.0100541651
 10
770.8140293019
 20
-278.0895423343
 10
775.6205074525
 20
-284.3212062902
 10
780.1958292319
 20
-290.6926736408
 10
784.5309107621
 20
-297.1912944273
 10
788.6171451402
 20
-303.8041662399
 10
792.4464195258
 20
-310.5181598335
 10
796.0111312493
 20
-317.3199451955
 10
799.3042029055
 20
-324.1960180105
 10
802.3190964053
 20
-331.1327264725
 10
805.0498259569
 20
-338.116298389
 10
807.4909699495
 20
-345.1328685242
 10
809.6376817176
 20
-352.1685061278
 10
811.4856991637
 20
-359.2092425924
 10
813.0313532202
 20
-366.2410991876
 10
814.2715751342
 20
-373.2501148129
 10
815.2039025598
 20
-380.2223737167
 10
815.8264844471
 20
-387.1440331243
 10
816.1380847175
 20
-394.0013507216
 10
816.1380847175
 20
-400.7807119392
 10
815.8264844471
 20
-407.4686569831
 10
815.2039025598
 20
-414.0519075573
 10
814.2715751342
 20
-420.5173932273
 10
813.0313532202
 20
-426.8522773697
 10
811.4856991637
 20
-433.0439826584
 10
809.6376817176
 20
-439.0802160358
 10
807.4909699495
 20
-444.9489931191
 10
805.0498259569
 20
-450.6386619948
 10
802.3190964053
 20
-456.1379263519
 10
799.3042029055
 20
-461.4358679101
 10
796.0111312493
 20
-466.5219680969
 10
792.4464195258
 20
-471.386128931
 10
788.6171451402
 20
-476.0186930715
 10
784.5309107621
 20
-480.4104629909
 10
783.1727058198
 20
-481.7612434418
  0
ARC
  5
C6
330
1F
100
AcDbEntity
  8
0
  6
Continuous
 62
     7
370
    25
100
AcDbCircle
 10
640.2147662225
 20
-322.6332058722
 30
0.0
 40
112.6696586758018
100
AcDbArc
 50
170.8703323809
 51
180.1243411365
  0
LWPOLYLINE
  5
C7
330
1F
100
AcDbEntity
  8
0
  6
Continuous
 62
     7
370
    25
100
AcDbPolyline
 90
       42
 70
   128
 43
0.0
 10
706.0001201919
 20
-486.1311185304
 10
705.2284251449
 20
-486.2340413718
 10
699.3436776341
 20
-486.8347472005
 10
693.3546350561
 20
-487.1246039632
 10
687.275725539
 20
-487.1029133694
 10
681.1215937084
 20
-486.7697276739
 10
674.9070654068
 20
-486.12584955
 10
668.6471119772
 20
-485.1728301566
 10
662.3568141959
 20
-483.9129654008
 10
656.051325941
 20
-482.3492904073
 10
649.7458376862
 20
-480.485572206
 10
643.4555399048
 20
-478.3263006574
 10
637.1955864753
 20
-475.8766776356
 10
630.9810581737
 20
-473.1426044973
 10
624.8269263431
 20
-470.1306678639
 10
618.748016826
 20
-466.8481237547
 10
612.758974248
 20
-463.302880106
 10
606.8742267371
 20
-459.5034777202
 10
601.1079511657
 20
-455.4590696904
 10
595.4740389965
 20
-451.1793993499
 10
589.9860628176
 20
-446.6747767994
 10
584.6572436441
 20
-441.9560540691
 10
579.5004190683
 20
-437.0345989754
 10
574.5280123322
 20
-431.9222677347
 10
569.7520023992
 20
-426.6313764008
 10
565.1838950955
 20
-421.1746711942
 10
560.8346953918
 20
-415.5652977959
 10
556.7148808911
 20
-409.8167696776
 10
552.8343765873
 20
-403.9429355471
 10
549.2025309553
 20
-397.9579459852
 10
545.8280934292
 20
-391.8762193561
 10
542.7191933247
 20
-385.7124070719
 10
539.8833202543
 20
-379.4813582964
 10
537.3273060848
 20
-373.1980841716
 10
535.0573084781
 20
-366.8777216555
 10
533.0787960573
 20
-360.5354970549
 10
531.3965352322
 20
-354.1866893443
 10
530.0145787163
 20
-347.8465933576
 10
528.9362557639
 20
-341.5304829414
 10
528.1641641496
 20
-335.2535741589
 10
527.7001639097
 20
-329.0309886331
 10
527.5453728613
 20
-322.8777171177
  0
LWPOLYLINE
  5
C8
330
1F
100
AcDbEntity
  8
0
  6
Continuous
 62
     7
370
    25
100
AcDbPolyline
 90
       80
 70
   128
 43
0.0
 10
539.0091196
 20
-168.1122386811
 10
541.924379386
 20
-165.3567883378
 10
546.9438868918
 20
-161.0016978489
 10
552.1969373487
 20
-156.9106052664
 10
557.6750102898
 20
-153.0901463573
 10
563.3692202607
 20
-149.54651792
 10
569.2703312319
 20
-146.2854677327
 10
575.36877158
 20
-143.3122852308
 10
581.6546496123
 20
-140.6317929272
 10
588.1177696118
 20
-138.2483385901
 10
594.7476483741
 20
-136.1657881913
 10
601.5335322117
 20
-134.3875196351
 10
608.4644143961
 20
-132.9164172796
 10
615.5290530111
 20
-131.7548672581
 10
622.715989187
 20
-130.9047536092
 10
630.0135656871
 20
-130.3674552202
 10
637.4099458156
 20
-130.1438435911
 10
644.8931326169
 20
-130.2342814207
 10
652.4509883346
 20
-130.6386220186
 10
660.0712540992
 20
-131.3562095429
 10
667.7415698116
 20
-132.3858800639
 10
675.4494941917
 20
-133.7259634523
 10
683.1825249581
 20
-135.374286088
 10
690.9281191065
 20
-137.3281743855
 10
698.673713255
 20
-139.584459131
 10
706.4067440213
 20
-142.1394806224
 10
714.1146684015
 20
-144.9890946053
 10
721.7849841139
 20
-148.1286789956
 10
729.4052498785
 20
-151.5531413759
 10
736.9631055962
 20
-155.2569272556
 10
744.4462923975
 20
-159.2340290806
 10
751.842672526
 20
-163.477995977
 10
759.1402490261
 20
-167.9819442152
 10
766.327185202
 20
-172.7385683745
 10
773.391823817
 20
-177.7401531933
 10
780.3227060014
 20
-182.9785860825
 10
787.108589839
 20
-188.4453702851
 10
793.7384686013
 20
-194.1316386568
 10
800.2015886007
 20
-200.0281680498
 10
806.4874666331
 20
-206.1253942716
 10
812.5859069811
 20
-212.4134275992
 10
818.4870179524
 20
-218.8820688194
 10
824.1812279233
 20
-225.5208257726
 10
829.6593008643
 20
-232.3189303707
 10
834.9123513213
 20
-239.2653560631
 10
839.931858827
 20
-246.348835722
 10
844.7096817221
 20
-253.5578799175
 10
849.2380703602
 20
-260.8807955535
 10
853.5096796785
 20
-268.3057048341
 10
857.517581111
 20
-275.8205645293
 10
861.2552738269
 20
-283.4131855092
 10
864.716695275
 20
-291.0712525147
 10
867.896231017
 20
-298.7823441333
 10
870.7887238344
 20
-306.5339529461
 10
873.3894820932
 20
-314.3135058152
 10
875.694287354
 20
-322.1083842774
 10
877.6994012142
 20
-329.9059450115
 10
879.4015713718
 20
-337.6935403453
 10
880.7980369007
 20
-345.4585387707
 10
881.8865327285
 20
-353.188345432
 10
882.6652933112
 20
-360.8704225543
 10
883.1330554961
 20
-368.4923097807
 10
883.2890605714
 20
-376.041644382
 10
883.1330554961
 20
-383.50618131
 10
882.6652933112
 20
-390.8738130584
 10
881.8865327285
 20
-398.1325893017
 10
880.7980369007
 20
-405.2707362782
 10
879.4015713718
 20
-412.2766758875
 10
877.6994012142
 20
-419.1390444698
 10
875.694287354
 20
-425.8467112382
 10
873.3894820932
 20
-432.3887963327
 10
870.7887238344
 20
-438.7546884673
 10
867.896231017
 20
-444.9340621418
 10
864.716695275
 20
-450.9168943894
 10
861.2552738269
 20
-456.6934810344
 10
857.517581111
 20
-462.254452432
 10
853.5096796785
 20
-467.5907886664
 10
849.2380703602
 20
-472.6938341806
 10
844.7096817221
 20
-477.5553118162
 10
842.847118613
 20
-479.4118858954
  0
LWPOLYLINE
  5
C9
330
1F
100
AcDbEntity
  8
0
  6
Continuous
 62
     7
370
    25
100
AcDbPolyline
 90
      110
 70
   128
 43
0.0
 10
477.7537420646
 20
-283.7940637695
 10
478.1896524
 20
-277.1482168242
 10
478.9684129827
 20
-269.8894405809
 10
480.0569088105
 20
-262.7512936044
 10
481.4533743394
 20
-255.7453539952
 10
483.155544497
 20
-248.8829854129
 10
485.1606583572
 20
-242.1753186445
 10
487.465463618
 20
-235.63323355
 10
490.0662218768
 20
-229.2673414153
 10
492.9587146942
 20
-223.0879677408
 10
496.1382504362
 20
-217.1051354932
 10
499.5996718843
 20
-211.3285488483
 10
503.3373646002
 20
-205.7675774506
 10
507.3452660327
 20
-200.4312412163
 10
511.616875351
 20
-195.328195702
 10
516.1452639891
 20
-190.4667180664
 10
520.9230868842
 20
-185.854693644
 10
525.9425943899
 20
-181.4996031551
 10
531.1956448469
 20
-177.4085105726
 10
536.673717788
 20
-173.5880516635
 10
542.3679277588
 20
-170.0444232262
 10
548.2690387301
 20
-166.7833730389
 10
554.3674790781
 20
-163.810190537
 10
560.6533571105
 20
-161.1296982334
 10
567.11647711
 20
-158.7462438963
 10
573.7463558723
 20
-156.6636934975
 10
580.5322397098
 20
-154.8854249413
 10
587.4631218942
 20
-153.4143225858
 10
594.5277605092
 20
-152.2527725643
 10
601.7146966851
 20
-151.4026589154
 10
609.0122731853
 20
-150.8653605264
 10
616.4086533138
 20
-150.6417488973
 10
623.891840115
 20
-150.7321867269
 10
631.4496958328
 20
-151.1365273248
 10
639.0699615973
 20
-151.8541148491
 10
646.7402773097
 20
-152.8837853701
 10
654.4482016899
 20
-154.2238687585
 10
662.1812324563
 20
-155.8721913941
 10
669.9268266047
 20
-157.8260796917
 10
677.6724207531
 20
-160.0823644372
 10
685.4054515195
 20
-162.6373859285
 10
693.1133758996
 20
-165.4869999115
 10
700.7836916121
 20
-168.6265843018
 10
708.4039573766
 20
-172.0510466821
 10
715.9618130943
 20
-175.7548325618
 10
723.4449998956
 20
-179.7319343867
 10
730.8413800241
 20
-183.9759012832
 10
738.1389565242
 20
-188.4798495214
 10
745.3258927001
 20
-193.2364736807
 10
752.3905313151
 20
-198.2380584995
 10
759.3214134996
 20
-203.4764913887
 10
766.1072973371
 20
-208.9432755912
 10
772.7371760994
 20
-214.629543963
 10
779.2002960989
 20
-220.526073356
 10
785.4861741312
 20
-226.6232995778
 10
791.5846144793
 20
-232.9113329054
 10
797.4857254506
 20
-239.3799741256
 10
803.1799354214
 20
-246.0187310788
 10
808.6580083625
 20
-252.8168356769
 10
813.9110588194
 20
-259.7632613693
 10
818.9305663252
 20
-266.8467410282
 10
823.7083892202
 20
-274.0557852237
 10
828.2367778584
 20
-281.3787008597
 10
832.5083871766
 20
-288.8036101403
 10
836.5162886091
 20
-296.3184698355
 10
840.2539813251
 20
-303.9110908154
 10
843.7154027732
 20
-311.5691578209
 10
846.8949385152
 20
-319.2802494395
 10
849.7874313326
 20
-327.0318582522
 10
852.3881895913
 20
-334.8114111214
 10
854.6929948521
 20
-342.6062895836
 10
856.6981087123
 20
-350.4038503177
 10
858.40027887
 20
-358.1914456515
 10
859.7967443988
 20
-365.9564440769
 10
860.8852402267
 20
-373.6862507381
 10
861.6640008093
 20
-381.3683278605
 10
862.1317629943
 20
-388.9902150869
 10
862.2877680695
 20
-396.5395496882
 10
862.1317629943
 20
-404.0040866162
 10
861.6640008093
 20
-411.3717183646
 10
860.8852402267
 20
-418.6304946079
 10
859.7967443988
 20
-425.7686415844
 10
858.40027887
 20
-432.7745811937
 10
856.6981087123
 20
-439.636949776
 10
854.6929948521
 20
-446.3446165444
 10
852.3881895913
 20
-452.8867016389
 10
849.7874313326
 20
-459.2525937735
 10
846.8949385152
 20
-465.431967448
 10
843.7154027732
 20
-471.4147996956
 10
840.253981325
 20
-477.1913863406
 10
836.5162886091
 20
-482.7523577382
 10
832.5083871766
 20
-488.0886939726
 10
828.2367778584
 20
-493.1917394868
 10
823.7083892202
 20
-498.0532171224
 10
818.9305663252
 20
-502.6652415449
 10
813.9110588194
 20
-507.0203320337
 10
808.6580083625
 20
-511.1114246162
 10
803.1799354214
 20
-514.9318835253
 10
797.4857254505
 20
-518.4755119627
 10
791.5846144793
 20
-521.7365621499
 10
785.4861741312
 20
-524.7097446518
 10
779.2002960989
 20
-527.3902369555
 10
772.7371760994
 20
-529.7736912925
 10
766.1072973371
 20
-531.8562416913
 10
759.3214134995
 20
-533.6345102476
 10
752.3905313151
 20
-535.1056126031
 10
745.3258927001
 20
-536.2671626245
 10
738.1389565242
 20
-537.1172762734
 10
730.8413800241
 20
-537.6545746624
 10
725.7134883856
 20
-537.8432011514
  0
LWPOLYLINE
  5
CA
330
1F
100
AcDbEntity
  8
0
  6
Continuous
 62
     7
370
    25
100
AcDbPolyline
 90
       90
 70
   128
 43
0.0
 10
512.3383133802
 20
-250.0384619265
 10
513.5471161728
 20
-247.0083405355
 10
516.1410551232
 20
-241.1992649757
 10
519.0237107908
 20
-235.5836751165
 10
522.1896712908
 20
-230.172113641
 10
525.6329928632
 20
-224.9747401906
 10
529.3472110314
 20
-220.0013122907
 10
533.325352739
 20
-215.2611670326
 10
537.5599494405
 20
-210.7632035438
 10
542.0430511232
 20
-206.5158662806
 10
546.7662412321
 20
-202.5271291751
 10
551.7206524712
 20
-198.8044806643
 10
556.8969834511
 20
-195.3549096319
 10
562.2855161512
 20
-192.1848922871
 10
567.8761341645
 20
-189.3003800061
 10
573.6583416899
 20
-186.7067881594
 10
579.6212832367
 20
-184.4089859447
 10
585.7537640054
 20
-182.4112872455
 10
592.044270904
 20
-180.7174425325
 10
598.4809941632
 20
-179.330631822
 10
605.0518495075
 20
-178.2534587063
 10
611.7445008427
 20
-177.4879454654
 10
618.5463834152
 20
-177.0355292703
 10
625.4447274011
 20
-176.8970594853
 10
632.4265818804
 20
-177.0727960728
 10
639.4788391509
 20
-177.5624091058
 10
646.5882593363
 20
-178.364979387
 10
653.7414952432
 20
-179.4790001745
 10
660.9251174186
 20
-180.9023800108
 10
668.1256393624
 20
-182.6324466488
 10
675.3295428471
 20
-184.6659520692
 10
682.5233032965
 20
-186.9990785782
 10
689.6934151771
 20
-189.6274459744
 10
696.826417353
 20
-192.5461197727
 10
703.908918358
 20
-195.7496204681
 10
710.9276215364
 20
-199.2319338226
 10
717.8693500065
 20
-202.9865221568
 10
724.7210713983
 20
-207.0063366235
 10
731.4699223208
 20
-211.283830441
 10
738.1032325116
 20
-215.8109730616
 10
744.6085486239
 20
-220.5792652481
 10
750.9736576065
 20
-225.57975503
 10
757.1866096323
 20
-230.8030545104
 10
763.2357405331
 20
-236.2393574902
 10
769.1096936976
 20
-241.8784578787
 10
774.7974413926
 20
-247.709768854
 10
780.288305466
 20
-253.7223427391
 10
785.5719773943
 20
-259.9048915548
 10
790.6385376355
 20
-266.2458082116
 10
795.4784742522
 20
-272.7331883012
 10
800.082700769
 20
-279.3548524452
 10
804.4425732319
 20
-286.0983691611
 10
808.5499064357
 20
-292.9510782008
 10
812.3969892916
 20
-299.9001143193
 10
815.9765993034
 20
-306.9324314272
 10
819.2820161275
 20
-314.0348270839
 10
822.307034189
 20
-321.1939672838
 10
825.0459743327
 20
-328.3964114892
 10
827.4936944846
 20
-335.6286378636
 10
829.6455993059
 20
-342.8770686577
 10
831.4976488202
 20
-350.1280957001
 10
833.0463659979
 20
-357.3681059451
 10
834.2888432845
 20
-364.58350703
 10
835.2227480586
 20
-371.7607527931
 10
835.8463270116
 20
-378.8863687056
 10
836.1584094391
 20
-385.946977168
 10
836.1584094391
 20
-392.9293226257
 10
835.8463270116
 20
-399.8202964547
 10
835.2227480586
 20
-406.6069615717
 10
834.2888432845
 20
-413.276576722
 10
833.0463659979
 20
-419.8166204
 10
831.4976488202
 20
-426.2148143572
 10
829.6455993059
 20
-432.4591466529
 10
827.4936944846
 20
-438.5378942056
 10
825.0459743327
 20
-444.439644802
 10
822.307034189
 20
-450.1533185221
 10
819.2820161275
 20
-455.6681885403
 10
815.9765993034
 20
-460.9739012646
 10
812.3969892916
 20
-466.0604957735
 10
808.5499064357
 20
-470.9184225175
 10
804.4425732319
 20
-475.5385612467
 10
800.082700769
 20
-479.9122381333
 10
795.4784742522
 20
-484.031242056
 10
790.6385376355
 20
-487.8878400154
 10
785.5719773943
 20
-491.4747916516
 10
780.288305466
 20
-494.7853628379
 10
774.7974413926
 20
-497.8133383226
 10
769.1096936976
 20
-500.5530333983
 10
763.2357405331
 20
-502.9993045737
 10
760.2980597012
 20
-504.0875993083
  0
LWPOLYLINE
  5
CB
330
1F
100
AcDbEntity
  8
0
  6
Continuous
 62
     7
370
    25
100
AcDbPolyline
 90
       36
 70
   128
 43
0.0
 10
707.209043703
 20
-475.2038612765
 10
706.4179017897
 20
-475.0691210055
 10
699.5438216684
 20
-473.7290136343
 10
692.6521401605
 20
-472.0825323746
 10
685.7569365763
 20
-470.1330408932
 10
678.8722974217
 20
-467.8845218897
 10
672.0122876201
 20
-465.3415689594
 10
665.1909217783
 20
-462.5093772095
 10
658.4221355558
 20
-459.3937326455
 10
651.7197571952
 20
-456.0010003506
 10
645.0974792714
 20
-452.3381114825
 10
638.5688307186
 20
-448.4125491134
 10
632.1471491918
 20
-444.2323329422
 10
625.8455538183
 20
-439.8060029109
 10
619.6769183966
 20
-435.1426017583
 10
613.6538450952
 20
-430.2516565457
 10
607.7886387077
 20
-425.1431591938
 10
602.0932815149
 20
-419.8275460702
 10
596.5794088049
 20
-414.3156766677
 10
591.258285104
 20
-408.6188114198
 10
586.1407811628
 20
-402.7485886956
 10
581.2373517487
 20
-396.717001024
 10
576.5580142871
 20
-390.5363705929
 10
572.1123283962
 20
-384.219324076
 10
567.9093763575
 20
-377.7787668376
 10
563.9577445613
 20
-371.2278565669
 10
560.2655059649
 20
-364.5799763983
 10
556.8402036002
 20
-357.84870757
 10
553.6888351636
 20
-351.0478016786
 10
550.8178387202
 20
-344.191152585
 10
548.2330795514
 20
-337.2927680306
 10
545.939838172
 20
-330.3667410197
 10
543.9427995426
 20
-323.4272210286
 10
542.2460434989
 20
-316.4883850989
 10
540.8530364161
 20
-309.564408875
 10
539.9257978912
 20
-303.8124764753
  0
ENDSEC
  0
SECTION
  2
OBJECTS
  0
DICTIONARY
  5
C
330
0
100
AcDbDictionary
281
     1
  3
ACAD_GROUP
350
D
  3
ACAD_LAYOUT
350
1A
  3
ACAD_MLINESTYLE
350
17
  3
ACAD_PLOTSETTINGS
350
19
  3
ACAD_PLOTSTYLENAME
350
E
  3
ACAD_SCALELIST
350
47
  0
DICTIONARY
  5
D
102
{ACAD_REACTORS
330
C
102
}
330
C
100
AcDbDictionary
281
     1
  0
DICTIONARY
  5
1A
102
{ACAD_REACTORS
330
C
102
}
330
C
100
AcDbDictionary
281
     1
  3
Layout1
350
1E
  3
Layout2
350
26
  3
Model
350
22
  0
DICTIONARY
  5
17
102
{ACAD_REACTORS
330
C
102
}
330
C
100
AcDbDictionary
281
     1
  3
Standard
350
18
  0
DICTIONARY
  5
19
102
{ACAD_REACTORS
330
C
102
}
330
C
100
AcDbDictionary
281
     1
  0
ACDBDICTIONARYWDFLT
  5
E
102
{ACAD_REACTORS
330
C
102
}
330
C
100
AcDbDictionary
281
     1
  3
Normal
350
F
100
AcDbDictionaryWithDefault
340
F
  0
DICTIONARY
  5
47
102
{ACAD_REACTORS
330
C
102
}
330
C
100
AcDbDictionary
281
     1
  3
A0
350
48
  3
A1
350
49
  3
A2
350
4A
  3
A3
350
4B
  3
A4
350
4C
  3
A5
350
4D
  3
A6
350
4E
  3
A7
350
4F
  3
A8
350
50
  3
A9
350
51
  3
B0
350
52
  3
B1
350
53
  3
B2
350
54
  3
B3
350
55
  3
B4
350
56
  3
B5
350
57
  3
B6
350
58
  3
B7
350
59
  3
B8
350
5A
  3
B9
350
5B
  3
C0
350
5C
  3
C1
350
5D
  3
C2
350
5E
  3
C3
350
5F
  3
C4
350
60
  3
C5
350
61
  3
C6
350
62
  3
C7
350
63
  3
C8
350
64
  3
C9
350
65
  3
D0
350
66
  3
D1
350
67
  3
D2
350
68
  0
LAYOUT
  5
1E
102
{ACAD_REACTORS
330
1A
102
}
330
1A
100
AcDbPlotSettings
  1

  2
none_device
  4

  6

 40
0.0
 41
0.0
 42
0.0
 43
0.0
 44
0.0
 45
0.0
 46
0.0
 47
0.0
 48
0.0
 49
0.0
140
0.0
141
0.0
142
1.0
143
1.0
 70
   688
 72
     1
 73
     0
 74
     5
  7

 75
    16
147
1.0
148
0.0
149
0.0
100
AcDbLayout
  1
Layout1
 70
     1
 71
     1
 10
0.0
 20
0.0
 11
420.0
 21
297.0
 12
0.0
 22
0.0
 32
0.0
 14
1.0000000000E+20
 24
1.0000000000E+20
 34
1.0000000000E+20
 15
-1.0000000000E+20
 25
-1.0000000000E+20
 35
-1.0000000000E+20
146
0.0
 13
0.0
 23
0.0
 33
0.0
 16
1.0
 26
0.0
 36
0.0
 17
0.0
 27
1.0
 37
0.0
 76
     0
330
1B
  0
LAYOUT
  5
26
102
{ACAD_REACTORS
330
1A
102
}
330
1A
100
AcDbPlotSettings
  1

  2
none_device
  4

  6

 40
0.0
 41
0.0
 42
0.0
 43
0.0
 44
0.0
 45
0.0
 46
0.0
 47
0.0
 48
0.0
 49
0.0
140
0.0
141
0.0
142
1.0
143
1.0
 70
   688
 72
     1
 73
     0
 74
     5
  7

 75
    16
147
1.0
148
0.0
149
0.0
100
AcDbLayout
  1
Layout2
 70
     1
 71
     2
 10
0.0
 20
0.0
 11
0.0
 21
0.0
 12
0.0
 22
0.0
 32
0.0
 14
0.0
 24
0.0
 34
0.0
 15
0.0
 25
0.0
 35
0.0
146
0.0
 13
0.0
 23
0.0
 33
0.0
 16
1.0
 26
0.0
 36
0.0
 17
0.0
 27
1.0
 37
0.0
 76
     0
330
23
  0
LAYOUT
  5
22
102
{ACAD_REACTORS
330
1A
102
}
330
1A
100
AcDbPlotSettings
  1

  2
none_device
  4
Letter_(8.50_x_11.00_Inches)
  6

 40
6.35
 41
6.35
 42
6.35000508
 43
6.35000508
 44
215.9
 45
279.4
 46
0.0
 47
0.0
 48
0.0
 49
0.0
140
0.0
141
0.0
142
1.0
143
1.0
 70
  1712
 72
     1
 73
     0
 74
     0
  7

 75
     0
147
1.0
148
0.0
149
0.0
100
AcDbLayout
  1
Model
 70
     1
 71
     0
 10
0.0
 20
0.0
 11
279.4
 21
215.9
 12
0.0
 22
0.0
 32
0.0
 14
0.0
 24
0.0
 34
0.0
 15
279.4
 25
215.9
 35
0.0
146
0.0
 13
0.0
 23
0.0
 33
0.0
 16
1.0
 26
0.0
 36
0.0
 17
0.0
 27
1.0
 37
0.0
 76
     0
330
1F
331
29
  0
MLINESTYLE
  5
18
102
{ACAD_REACTORS
330
17
102
}
330
17
100
AcDbMlineStyle
  2
Standard
 70
     0
  3

 62
   256
 51
90.0
 52
90.0
 71
     2
 49
0.5
 62
   256
  6
BYLAYER
 49
-0.5
 62
   256
  6
BYLAYER
  0
ACDBPLACEHOLDER
  5
F
102
{ACAD_REACTORS
330
E
102
}
330
E
  0
SCALE
  5
48
102
{ACAD_REACTORS
330
47
102
}
330
47
100
AcDbScale
 70
     0
300
1:1
140
1.0
141
1.0
290
     1
  0
SCALE
  5
49
102
{ACAD_REACTORS
330
47
102
}
330
47
100
AcDbScale
 70
     0
300
1:2
140
1.0
141
2.0
290
     0
  0
SCALE
  5
4A
102
{ACAD_REACTORS
330
47
102
}
330
47
100
AcDbScale
 70
     0
300
1:4
140
1.0
141
4.0
290
     0
  0
SCALE
  5
4B
102
{ACAD_REACTORS
330
47
102
}
330
47
100
AcDbScale
 70
     0
300
1:5
140
1.0
141
5.0
290
     0
  0
SCALE
  5
4C
102
{ACAD_REACTORS
330
47
102
}
330
47
100
AcDbScale
 70
     0
300
1:8
140
1.0
141
8.0
290
     0
  0
SCALE
  5
4D
102
{ACAD_REACTORS
330
47
102
}
330
47
100
AcDbScale
 70
     0
300
1:10
140
1.0
141
10.0
290
     0
  0
SCALE
  5
4E
102
{ACAD_REACTORS
330
47
102
}
330
47
100
AcDbScale
 70
     0
300
1:16
140
1.0
141
16.0
290
     0
  0
SCALE
  5
4F
102
{ACAD_REACTORS
330
47
102
}
330
47
100
AcDbScale
 70
     0
300
1:20
140
1.0
141
20.0
290
     0
  0
SCALE
  5
50
102
{ACAD_REACTORS
330
47
102
}
330
47
100
AcDbScale
 70
     0
300
1:30
140
1.0
141
30.0
290
     0
  0
SCALE
  5
51
102
{ACAD_REACTORS
330
47
102
}
330
47
100
AcDbScale
 70
     0
300
1:40
140
1.0
141
40.0
290
     0
  0
SCALE
  5
52
102
{ACAD_REACTORS
330
47
102
}
330
47
100
AcDbScale
 70
     0
300
1:50
140
1.0
141
50.0
290
     0
  0
SCALE
  5
53
102
{ACAD_REACTORS
330
47
102
}
330
47
100
AcDbScale
 70
     0
300
1:100
140
1.0
141
100.0
290
     0
  0
SCALE
  5
54
102
{ACAD_REACTORS
330
47
102
}
330
47
100
AcDbScale
 70
     0
300
2:1
140
2.0
141
1.0
290
     0
  0
SCALE
  5
55
102
{ACAD_REACTORS
330
47
102
}
330
47
100
AcDbScale
 70
     0
300
4:1
140
4.0
141
1.0
290
     0
  0
SCALE
  5
56
102
{ACAD_REACTORS
330
47
102
}
330
47
100
AcDbScale
 70
     0
300
8:1
140
8.0
141
1.0
290
     0
  0
SCALE
  5
57
102
{ACAD_REACTORS
330
47
102
}
330
47
100
AcDbScale
 70
     0
300
10:1
140
10.0
141
1.0
290
     0
  0
SCALE
  5
58
102
{ACAD_REACTORS
330
47
102
}
330
47
100
AcDbScale
 70
     0
300
100:1
140
100.0
141
1.0
290
     0
  0
SCALE
  5
59
102
{ACAD_REACTORS
330
47
102
}
330
47
100
AcDbScale
 70
     0
300
1/128" = 1'-0"
140
0.0078125
141
12.0
290
     0
  0
SCALE
  5
5A
102
{ACAD_REACTORS
330
47
102
}
330
47
100
AcDbScale
 70
     0
300
1/64" = 1'-0"
140
0.015625
141
12.0
290
     0
  0
SCALE
  5
5B
102
{ACAD_REACTORS
330
47
102
}
330
47
100
AcDbScale
 70
     0
300
1/32" = 1'-0"
140
0.03125
141
12.0
290
     0
  0
SCALE
  5
5C
102
{ACAD_REACTORS
330
47
102
}
330
47
100
AcDbScale
 70
     0
300
1/16" = 1'-0"
140
0.0625
141
12.0
290
     0
  0
SCALE
  5
5D
102
{ACAD_REACTORS
330
47
102
}
330
47
100
AcDbScale
 70
     0
300
3/32" = 1'-0"
140
0.09375
141
12.0
290
     0
  0
SCALE
  5
5E
102
{ACAD_REACTORS
330
47
102
}
330
47
100
AcDbScale
 70
     0
300
1/8" = 1'-0"
140
0.125
141
12.0
290
     0
  0
SCALE
  5
5F
102
{ACAD_REACTORS
330
47
102
}
330
47
100
AcDbScale
 70
     0
300
3/16" = 1'-0"
140
0.1875
141
12.0
290
     0
  0
SCALE
  5
60
102
{ACAD_REACTORS
330
47
102
}
330
47
100
AcDbScale
 70
     0
300
1/4" = 1'-0"
140
0.25
141
12.0
290
     0
  0
SCALE
  5
61
102
{ACAD_REACTORS
330
47
102
}
330
47
100
AcDbScale
 70
     0
300
3/8" = 1'-0"
140
0.375
141
12.0
290
     0
  0
SCALE
  5
62
102
{ACAD_REACTORS
330
47
102
}
330
47
100
AcDbScale
 70
     0
300
1/2" = 1'-0"
140
0.5
141
12.0
290
     0
  0
SCALE
  5
63
102
{ACAD_REACTORS
330
47
102
}
330
47
100
AcDbScale
 70
     0
300
3/4" = 1'-0"
140
0.75
141
12.0
290
     0
  0
SCALE
  5
64
102
{ACAD_REACTORS
330
47
102
}
330
47
100
AcDbScale
 70
     0
300
1" = 1'-0"
140
1.0
141
12.0
290
     0
  0
SCALE
  5
65
102
{ACAD_REACTORS
330
47
102
}
330
47
100
AcDbScale
 70
     0
300
1-1/2" = 1'-0"
140
1.5
141
12.0
290
     0
  0
SCALE
  5
66
102
{ACAD_REACTORS
330
47
102
}
330
47
100
AcDbScale
 70
     0
300
3" = 1'-0"
140
3.0
141
12.0
290
     0
  0
SCALE
  5
67
102
{ACAD_REACTORS
330
47
102
}
330
47
100
AcDbScale
 70
     0
300
6" = 1'-0"
140
6.0
141
12.0
290
     0
  0
SCALE
  5
68
102
{ACAD_REACTORS
330
47
102
}
330
47
100
AcDbScale
 70
     0
300
1'-0" = 1'-0"
140
12.0
141
12.0
290
     0
  0
ENDSEC
  0
EOF
